Strona Główna
Biografia
Dyskografia
Wywiady
Recenzje
Teksty
Fotografie
Tabulatury
Download
M P 3
Linki

FanClub
Sklepik
IRC

Forum
Księga Gości
Kontakt



..:]Tabulatury[:..


Visionaire
TIAMAT
z albumu Wildhoney
Muzyka: Johan Edlund & Thomas Petersson
Słowa: Johan Edlund

Rozpisał Erik Albinsson (f0018@ljusdal.se)

Gitarę przestroić o jeden ton w dół (od niskich do wysokich: D G C F A D)
 

czysta gitara (intro & zwrotka)
|-----------0-----------------0------------------0-----------------0------|
|--------6-----6-----------6-----6------------6-----6-----------6-----6---|
|-----7-----------7-----7-----------7------7-----------7-----7-----------7|
|--0-----------------0-----------------8------------------8---------------|
|-------------------------------------------------------------------------|
|-------------------------------------------------------------------------|
 

Gitara z distortion (intro)
|-------------------------------------------|
|-------------------------------------------|
|-------------------------------------------|
|--7--------------------------7--------3----|
|--5--------------------------5--------1----|
|-------------------------------------------|
 

Gitara z distortion(zwrotka)
|------------------------------------|
|------------------------------------|
|------------------------------------|
|--7-----9-----10----12-----3--------|
|--5-----7-----8-----10-----1--------|
|------------------------------------|
 

Gitara z distortion (przed-refren)
|--------------------------------------------------|
|--------------------------------------------------|
|--------------------------------------------------|
|-------------------------------------------------0|
|--2-------------2--------2--------------3--2--3---|
|--0----5--3--5--0--------0----5--3--5-------------|
 

Gitara z distortion (refren)
|---------------------------------------|
|---------------------------------------|
|---------------------------------------|
|--2--------2--------2-----------------0|
|--0--------0--------0--------3--2--3---|
|---------------------------------------|
 

czysta gitara (refren)
|-----------0-----------------0-----------------0--------------------|
|--------------0-----------------0--1--------------0-----1--0--1--3--|
|--------2--------2--------2-----------------2--------2--------------|
|-----2-----------------2-----------------2--------------------------|
|--0-----------------0-----------------0-----------------------------|
|--------------------------------------------------------------------|

..::] Wstecz [::..





Dzoj.pl