Strona Główna
Biografia
Dyskografia
Wywiady
Recenzje
Teksty
Fotografie
Tabulatury
Download
M P 3
Linki

FanClub
Sklepik
IRC

Forum
Księga Gości
Kontakt



..:]Tabulatury[:..


The return of the son of nothing
by Tiamat
z albumu Judas Christ
rozpisał: Tomek Woźniak (woziul@poczta.onet.pl)
 

Riff 1 ( wstęp x4 ) - czysty strój
e|----------------------------------|
h|----------------------------------|
g|------9---------------------------|
d|---9-----9---9---10---9---9---9---|
a|-7--7------7---7----7---7---7-----|
e|----------------------------------| 

Refren x2( ale tylko we wstępie !!! )- z przesterem, fuzzem, 
distortionem czy jak tam chcecie J
e|-------------------|
h|-------------------|
g|----------5--------|
d|--2-------5----5---|
a|--2-------3----5---|
e|--0------------3---| 


No i mamy zwrotkę I, którą jest Riff 1 x8 z tym, że hehehe
bass gra na pewno za 3 razem dźwięk c,a gitara chyba nie, a raczej na pewno
ale jeśli gracie sami to możecie zagrać c zamiast pustej e6 za 3 i 7 razem 
E6--8- ( za bass ) !!! 

Dobra teraz jest refren. I tak: 

Johan x4: Thomas x2: 
e|-------------------|
h|-------------------|
g|----------5--------|
d|--2-------5----5---|
a|--2-------3----5---|
e|--0------------3---| 

Thomas x2: 
e|----------------------------------------------------------------------------|
h|----------------------------------------------------------------------------|
g|-----------~------------~-----------------------------p---------s------~----|
d|-------h---9--------h---9----------h----~----------12---10---10---9----9----|
a|--7-7-9-10-----7-7-9-10-----------9-10-10-----------------------------------|
e|--.-.----------.-.------------8-8-------------------------------------------|
                                                      tutaj jest z delayem 

Zwrotka II - Riff 1 x8 ( to samo co w przypadku I zwrotki ) 

Teraz ten motyw x2:
e|----------------------~-----------------~--------------------------------|
h|------10-10-10-10--12-8------5-5-5-5--8-5--------------------------------|
g|------------------------------------------------p----s----s----s----s~---|
d|----------------------------------------------10-9--9-7--7-5--5-7--7-9---|
a|-------------------------------------------------------------------------|
e|-------------------------------------------------------------------------| 

Następnie Riff 1 ( tak jak we wstępie - bez kombinowania ) x4 
a za ostatnim razem Thomas wchodzi:
e|----------------------------------|   |---------------------------|       
h|----------------------------------|   |---------------------------|
g|------9---------------------------|   |---p----s----s----s----s---|
d|---9-----9---9---10---9---9---9---|   |-10-9--9-7--7-5--5-7--7-9--|
a|-7--7------7---7----7---7---7-----|   |---------------------------|
e|----------------------------------|   |---------------------------|
Refren:  
tutaj  jest z delayem 
Johan x6 Thomas x4: 
e|-------------------|
h|-------------------|
g|----------5--------|
d|--2-------5----5---|
a|--2-------3----5---|
e|--0------------3---| 

Thomas x2: 
e|----------------------------------------------------------------------------|
h|----------------------------------------------------------------------------|
g|-----------~------------~-----------------------------p---------s------~----|
d|-------h---9--------h---9----------h----~----------12---10---10---9----9----|
a|--7-7-9-10-----7-7-9-10-----------9-10-10-----------------------------------|
e|--.-.----------.-.------------8-8-------------------------------------------|
                                                      tutaj jest z delayem
e|-----|
h|-----|
g|-----|
d|--2--|
a|--2--|
e|--0--|

Kwestia jest taka, że tam gdzie napisałem "tutaj jest delay" 
( nie wiem na 100% ) można zagrać harmonię:

e|----------------------------------------------------------------------------|
h|----------------------------------------------------------------------------|
g|-----------~------------~-----------------------------p---------s------~----|
d|-------h---9--------h---9----------h----~----------12---10---10---9----9----|
a|--7-7-9-10-----7-7-9-10-----------9-10-10---------(14)-(12)-(12)-(10)-(10)--|
e|--.-.----------.-.------------8-8-------------------------------------------|


e|---------------------------------------------|          
h|---------------------------------------------|   
g|----p---------s--------s-------s-------s-----|
d|-10---9-----9----7---7---5---5---7---7---9---|
a|-----(10)--(10)-(9)-(9)-(7)-(7)-(9)-(9)-(10)-|
e|---------------------------------------------|

~ - WIBRATO
P - PULL OFF
S - SLIDE
.. - TŁUMIENIE



..::] Wstecz [::..





Dzoj.pl