Strona Główna
Biografia
Dyskografia
Wywiady
Recenzje
Teksty
Fotografie
Tabulatury
Download
M P 3
Linki

FanClub
Sklepik
IRC

Forum
Księga Gości
Kontakt



..:]Tabulatury[:..


Lady Temptress
Tiamat
z albumu The Astral Sleep

Rozpisał Alexander Berreth, Alexander.Berreth@studbox.uni-stuttgart.de



* = p.m.



INTRO



------------------------------------------|----------------------------------

------------------------------------------|----------------------------------

------------------------------------------|----------------------------------

-----8-8---8-8---8-8-----7-7---7-7---7-7--|----------------------------------

-----8-8---8-8---8-8-----7-7---7-7---7-7--|----------------------------------

--00-6-6-0-6-6-0-6-6--00-5-5-0-5-5-0-5-5--|----------------------------------

  **                  **



repeat four times



  two guitars



|------------------------------------------------------------------|---------

|------------------------------------------------------------------|---------

|------------------------------------------------------------------|---------

|------------------------------------------------------------------|---------

|--000-666-555-----000-666-555-888-000-666-555-----000-666-555-888-|---------

|--------------666-----------------------------666-----------------|---------

|                                                                  |

|------------------------------------------------------------------|---------

|------------------------------------------------------------------|---------

|------------------------------------------------------------------|---------

|--2---------------2---------------2---------------2---2---2---2---|---------

|--2---------------2---------------2---------------2---2---2---2---|---------

|--0---------------0---------------0---------------0---0---0---0---|---------

  |---------------------------------|

    only the first time



repeat two times





RIFF A



|---------------------------|---------------------------|--------------------

|---------------------------|---------------------------|--------------------

|---------------------------|---------------------------|--------------------

|---------------------------|---------------------------|--------------------

|------6-----5-----6--------|------6-----5-------6-5-4--|--------------------

|--0-0---0-0---0-0---6-5-4--|--0-0---0-0---0-0-4--------|--------------------

   * *   * *   * *             * *   * *   * *



RIFF B



|----------------------------------------|-----------------------------------

|----------------------------------------|-----------------------------------

|----------8-7-7-7-7---------------------|-----------------------------------

|--2-------8-7-7-7-7--2-------3-x-3-x-3--|-----------------------------------

|--2-------6-5-5-5-5--2-------3-x-3-x-3--|-----------------------------------

|--0------------------0-------1-x-1-x-1--|-----------------------------------



 Repeat two times





 RIFF C



|----------------------------------|-----------------------------------------

|----------------------------------|-----------------------------------------

|----------------------------------|-----------------------------------------

|----------------------------------|-----------------------------------------

|----------------------------------|-----------------------------------------

|--5-----0-4-----0-1-----0-6-----0-|-----------------------------------------



INTRO Riff A : 5x Riff B Riff A : 4x Riff B Riff C : 6x [Solo] Riff A : 5x Riff B

..::] Wstecz [::..





Dzoj.pl