Strona Główna
Biografia
Dyskografia
Wywiady
Recenzje
Teksty
Fotografie
Tabulatury
Download
M P 3
Linki

FanClub
Sklepik
IRC

Forum
Księga Gości
Kontakt



..:]Tabulatury[:..


Evilized
Tiamat z albumu
Sumerian Cry

Rozpisał Philipe Holstner /Church Of Tiamat/




RIFF ONE



E |-----------------------------------------------------------||

B |-----------------------------------------------------------||

G |-----------------------------------------------------------||

D |-----------------------------------------------------------||

A |-----------------------------------------------------------||

E |--0-0-0-0-2-2-2-2-5-5-5-5-3-3-3-3-6-6-6-6-3-3-3-3-5-5-5-5--|| X6



RIFF TWO



E |-----------------------------------------------------------------------------------||

B |-----------------------------------------------------------------------------------||

G |-----------------------------------------------------------------------------------||

D |----------------------------------3-3-3-3------------------------------------------||

A |----------2-2-2-2-3-3-3-3-5-5-5-5-----------------3-3-3-3-2-2-2-2------------------||

E |--0-0-0-0---------------------------------0-0-0-0-----------------3-3-3-3-2-2-2-2--|| x4



RIFF THREE



E |-----------------------------------------------------------------||

B |-----------------------------------------------------------------||

G |-----------------------------------------------------------------||

D |--------------------------------------------------------5-5-5-5--||

A |--3-3-3-3-6-6-6-6-5-5-5-5-4-4-4-3-3-3-3-6-6-6-6-5-5-5-5----------||

E |-----------------------------------------------------------------|| x4



RIFF FOUR

* GUITAR ONE                           * GUITAR TWO

E |-----------------------------||     |------------------------||

B |-----------------------------||     |------------------------||

G |-----------------------------||     |---------9--------------||

D |--5--7--8--7~----5--7--8--4--||     |--7-9-10---10-7-9-10----||

A |--5--7--8--5~-8--5--7--8--4--||     |---------------------7--||

E |--3--5--6-----6--3--5--6--2--|| x8  |------------------------|| AT 4 x 4



RIFF ONE

RIFF TWO

RIFF THREE

RIFF FOUR



RIFF FIVE



E |-------------------------------------------------------||

B |-------------------------------------------------------||

G |-------------------------------------------------------||

D |-------------------------------------------------------||

A |----------5-5-5-5-6-6-6-5-6-5-------3-4-3-------2-1----||

E |--0-0-0-0---------------------0-0-0-------0-0-0-----2--|| x8


RIFF ONE
RIFF TWO
RIFF THREE
RIFF FOUR
RIFF ONE (HALF)

..::] Wstecz [::..





Dzoj.pl