Strona Główna
Biografia
Dyskografia
Wywiady
Recenzje
Teksty
Fotografie
Tabulatury
Download
M P 3
Linki

FanClub
Sklepik
IRC

Forum
Księga Gości
Kontakt



..:]Tabulatury[:..


Do You Dream Of Me?
Tiamat z albumu Wildhoney
Rozpisał Mikko Issakainen, miissaka@silmu.jyu.fi
 
 
-------------------- 
 
 Fig.1 (Gtr 1)                                                     End Fig.1 
  Dm                                  A7 
|-----1-------1---|-----1-------1---|-----0-------0---|-----3-------0---| 
|-----3-------3---|-----3-------3---|-----2-------2---|-----5-------2---| 
|-----------------|-----------------|-----------------|-----------------| 
|-0-------0-------|-0-------0-------|-----------------|-----------------| 
|-----------------|-----------------|-0-------0-------|-0-------0-------| 
|-----------------|-----------------|-----------------|-----------------| 
 
(Repeat Fig.1 6 times. 3rd time Gtr 2 starts playing Fig.2 which is 
 played 4 times.) 
 
 Fig.2 (Gtr 2)                                                     End Fig.2 
|-----------------|-5---------------|-----------------|-3-------5---3---| 
|-6---------------|-6-----------5-6-|-5---------------|-5-------6---5---| 
|-7---------------|-----------------|-6---------------|-----------------| 
|-----------------|-----------------|-----------------|-----------------| 
|-----------------|-----------------|-----------------|-----------------| 
|-----------------|-----------------|-----------------|-----------------| 
 
 
 
     Come down,     slowly              I'm waiting by your side 
 Verse Fig. (Gtr 1 only) 
  Dm                                  A7 
|-----1-------1---|-----1-------1---|-----0-------0---|-----3-------0---| 
|-----3-------3---|-----3-------3---|-----2-------2---|-----5-------2---| 
|-----------------|-----------------|-----------------|-----------------| 
|-0-------0-------|-0-------0-------|-----------------|-----------------| 
|-----------------|-----------------|-0-------0-------|-0-------0-------| 
|-----------------|-----------------|-----------------|-----------------| 
 
     Come down,     carefully           I'm waiting by your side 
  Dm                                  A7                G     End Verse Fig. 
|-----1-------1---|-----1-------1---|-----0-------0---|-----------------| 
|-----3-------3---|-----3-------3---|-----2-------2---|-----0-------0---| 
|-----------------|-----------------|-----------------|-----0-------0---| 
|-0-------0-------|-0-------0-------|-----------------|-----------------| 
|-----------------|-----------------|-0-------0-------|-----------------| 
|-----------------|-----------------|-----------------|-3-------3-------| 
 
 (Repeat Verse Fig.) 
 I'll grab you when you fall    Down to the waking hours 
 Silent sweeps as golden corn   Down to the waking hours 
 
 (4X Fig.1 with Fig.2 ) 
 
 (Repeat Verse Fig.) 
 How I wish that I could        Break into your dreams 
 Do I have the force I need     To break into your dreams 
 
 (Repeat Verse Fig.) 
 I hold you in my arms          Dimmed by scarlet morning red 
 I whisper in your ear          "Do you dream of me?" 
 
 (4X Fig.1 with Fig.2 ) 
 
Solo: 
|-----------------|-----------------|-------------------| 
|-------5-6-5-----|-----------------|-------5-6--/10-10-| 
|-----7-------7-5-|-5/7-2-3-----5---|-----7-------------| 
|---7-------------|-----------------|-7-----------------| 
|-----------------|-----------------|-------------------| 
|-----------------|-----------------|-------------------| 
 
|-------------------------------------------------| 
|----A fast bit with slides, hammer on's----------|  NOTE: The timing 
|----and pull off's...----------------------------|  is NOT there. You'll 
|-------------------------------------------------|  have to get it from 
|-------------------------------------------------|  the record. 
|-------------------------------------------------| 
 
                                                    H  P 
|-----13-12-10-------|------P------------|-13---12---13-12----12-------------| 
|-----------------13-|-11-11-10-10-------|-15--------------15----13-15----13-| 
|-7~~----------------|-------------------|-----------------------------15----| 
|--------------------|-------------------|-----------------------------------| 
|--------------------|-------------------|-----------------------------------| 
|--------------------|-------------------|-----------------------------------| 
 
|-------------------------------------------|---------------------------| 
|-------------------------------------------|---------------"Slow"------| 
|-14-15-12-14-10-12-9-10-7-9-7--------------|----------------slide------| 
|------------------------------10-8-10-8-7--|-----2-3-------0-2/8-5-7---| 
|-------------------------------------------|-3-5-----5-----------------| 
|-------------------------------------------|---------------------------| 
 
                                                        H  P 
|-----------------|---------------------|--10-12-13--12--13-12-10--12--8--10| 
|-------5-6---5---|-6---8-5---6---5-----|-10--------------------------------| 
|---5-7-----7---5-|-------------7---5-7-|-----------------------------------| 
|-8---------------|---------------------|-----------------------------------| 
|-----------------|---------------------|-----------------------------------| 
|-----------------|---------------------|-----------------------------------| 
 
         H P 
|-6-8-6---8-6\5---|-----------------|-----------------------------------| 
|-----------------|---8-6-5-6-5-----|----------A fast bit once again----| 
|-----------------|-5-----------7-5-|-----------------------------------| 
|-----------------|-----------------|-----------------------------------| 
|-----------------|-----------------|-----------------------------------| 
|-----------------|-----------------|-----------------------------------| 
 
 
 Elec. Guitar: 
(Repeat Fig.1 & 2 to the end) 
   Dm                                  A7 
||-----------------|-----------------|-----------------|-------------H---|| 
||-15-----~~~------|(15)-------17-18-|-18--------------|(18)-------17-18-|| 
||*----------------|-----------------|-----------------|----------------*|| 
||*----------------|-----------------|-----------------|----------------*|| 
||-----------------|-----------------|-----------------|-----------------|| 
||-----------------|-----------------|-----------------|-----------------|| 
 
  Dm                                  A7 
|-----------------|-----------------|-----------------|-----------------| 
|-15--------------|(15)----\--11-10-|-10--------------|(10)-----6---5-6-| 
|-----------------|-----------------|-----------------|-----------------| 
|-----------------|-----------------|-----------------|-----------------| 
|-----------------|-----------------|-----------------|-----------------| 
|-----------------|-----------------|-----------------|-----------------| 
 
  Dm                                  A7 
|-----------------|--------------H--|-----------------|--------------H--| 
|-----------------|-------------5-6-|-5---------------|(5)----------5-6-| 
|-7---------------|(7)--------------|-----------------|-----------------| 
|-----------------|-----------------|-----------------|-----------------| 
|-----------------|-----------------|-----------------|-----------------| 
|-----------------|-----------------|-----------------|-----------------| 
 
  Dm                                  A7 
|-----------------|-----------------|-----------------|-----------------| 
|-----------------|-----------------|-----------------|-----------------| 
|-7---------------|(7)--------------|-----------------|-----------------| 
|-----------------|-------------8-7-|-7---------------|(7)--------------| 
|-----------------|-----------------|-----------------|-------------8-7-| 
|-----------------|-----------------|-----------------|-----------------| 
 
  Dm                                  A7 
|-----------------|-----------------|-----------------|-----------------| 
|-----------------|-----------------|-----------------|-----------------| 
|-----------------|-----------------|-----------------|-----------------| 
|-----------------|-----------------|-----------------|-----------------| 
|-5---------------|(5)----------7-8-|-7---------------|-------------7-8-| 
|-----------------|-----------------|-----------------|-----------------| 
 
  Dm                                  A7 
|-----------------|-----------------|-----------------|-----------------| 
|-----------------|-----------------|-----------------|-----------------| 
|-----------------|-----------------|-----------------|-----------------| 
|-----------------|-----------------|-7---------------|(7)--------------| 
|-5---------------|(5)--------------|-----------------|-----------------| 
|-----------------|-----------------|-----------------|-----------------| 
 
  Dm                                  A7                     Repeat and fade 
||-----------------|-----------------|-----------------|-----------------|| 
||-----------------|-------------5-6-|-5---------------|(5)----------5-6-|| 
||*7---------------|(7)--------------|-----------------|----------------*|| 
||*----------------|-----------------|-----------------|----------------*|| 
||-----------------|-----------------|-----------------|-----------------|| 
||-----------------|-----------------|-----------------|-----------------|| 
 
 

..::] Wstecz [::..





Dzoj.pl