Strona Główna
Biografia
Dyskografia
Wywiady
Recenzje
Teksty
Fotografie
Tabulatury
Download
M P 3
Linki

FanClub
Sklepik
IRC

Forum
Księga Gości
Kontakt



..:]Tabulatury[:..


Apotheosis Of Morbidity
by Tiamat
z albumu Sumerian Cry

Rozpisał Philip Holstner

HOLSTNER@POLBOX.COM



                               / - slide up
                               \ - slide down
                               ^ - put down


                                    Intro
   I                      II                      III

e =

|----------------------|-----------------------|-----------------------|

h =

|----------------------|-----------------------|-----------------------|

g =

|----------------------|-----------------------|-----------------------|

d =

|--3--3--3--3----------|--3--3--3--3-----------|--3--3--3--3-----------|

a =

|--3--3--------2/3--1--|--3--3--------2/3--1---|--3--3--------2/3--1---|

e =

|--1--1----------------|--1--1-----------------|--1--1-----------------|



   IV

e |----------------------|| x6(I,II,III,IV)

h |----------------------||

g |----------------------||

d |----------3/5--3------||

a |--2/3--2--------------||

e |----------------------||



Riff 1



e |----------------------|------------------------|| x6

h |----------------------|------------------------||

g |----------------------|------------------------||

d |--2---4/5---4--8---7--|--2---3/4---3--6--5--2--||

a |--2---4/5---4--8---7--|--2---3/4---3--6--5--2--||

e |--0---2/3---2--6---5--|--0---1/2---1--4--3--0--||



Riff 2



e |------------------------------------------------------------------|| =

x2

h |------------------------------------------------------------------||

g |------------------------------------------------------------------||

d |--2-----------------7-7-7-7-5-5-5-5-2-------3-3-3-3---5--4--------||

a |--2-----------------7-7-7-7-5-5-5-5-2-------3-3-3-3---3--2--5--4--||

e |--0-0-0-0-0-0-0-0-0-5-5-5-5-3-3-3-3-0-0-0-0-1-1-1-1---------3--2--||

       ^ ^ ^ ^ ^ ^ ^ ^                   ^ ^ ^

Riff 3



e |------------------------|-------------------------|| x2

h |------------------------|-------------------------||

g |------------------------|-------------------------||

d |--2--6\3--5-------------|--2--6\3--5--8-8-8-8--4--||

a |--2--6\3--5-------------|--2--6\3--5--8-8-8-8--4--||

e |--0--4\1--3-3-3-3-3-3-3-|--0--4\1--3--6-6-6-6--2--||

               ^ ^ ^ ^ ^ ^                        ^

Riff 1 x4

Riff 2 x2

Riff 3 x2



Riff 4



e =

|----------------------------------|-----------------------------------||=

 x4

h =

|----------------------------------|-----------------------------------||=



g =

|-------------------5--------------|-----------------------------------||=



d =

|-6--5--3-----------3-3-3-3-3-3-3--|--6--5--3-----------5--------------||=



a =

|----------5--6--5-----------------|-----------5--6--5--3-3-3-3-3-3-3--||=



e =

|----------------------------------|-----------------------------------||=



                        ^ ^ ^ ^ ^ ^                         ^ ^ ^ ^ ^ ^

Solo (..umm..ghhp....uphh.....mmmnnnn..mmnnn......)



Gitara 2 podczas



e =

|-----------------------------------|-----------------------------------|=

 x4

h =

|-----------------------------------|-----------------------------------|=



g =

|-----------------------------------|-----------------------------------|=



d =

|-5-5-5-5--2-2-2-2--5-5-5-5-5-5-5-5-|-2-2-2-2--3-3-3-3--5-5-5-5-5-5-5-5-|=



a =

|-3-3-3-3--0-0-0-0--5-5-5-5-5-5-5-5-|-0-0-0-0--1-1-1-1--5-5-5-5-5-5-5-5-|=



e =

|-------------------3-3-3-3-3-3-3-3-|-------------------3-3-3-3-3-3-3-3-|=





...zakonczenie podkladu dla gitary 2



e |----------------||

h |----------------||

g |----------------||

d |---4-3----------||                         /---\
a |-0-----4-3-1----||                         | 6 |
e |-------------5--||                         | 6 |
                ^                             | 6 |
Riff 1 x4                                     | T |
Riff 2 x2                                     | I |
Riff 3 x4                                     | A |
                                              | M |
koncowka                                /-----/ A \-----\
                                        | 666 SATAN 666 |
e |----------------||                   \-----\ 6 /-----/
h |----------------||                         | 6 |
g |----------------||                         | 6 |
d |--2-------------||                         \---/
a |--2-------------||
e |--0-------------||

*************************************************************************=
*****
*     Philip Holstner do it for you, my adress      =
    *
*                           -  The End Complete  -                       =
    *
* 1997.04.1. Jesli cos ci sie nie podoba zmien, moze bedzie blizsze =
orginalu *
*************************************************************************=
*****

..::] Wstecz [::..





Dzoj.pl