Strona Główna
Biografia
Dyskografia
Wywiady
Recenzje
Teksty
Fotografie
Tabulatury
Download
M P 3
Linki

FanClub
Sklepik
IRC

Forum
Księga Gości
Kontakt



..:]Tabulatury[:..


Altar Flame
Tiamat z albumu
Sumerian Cry

Rozpisał Philipe Holstner /Church Of Tiamat/



RIFF ONE



E |---------------------------------------||

B |---------------------------------------||

G |---------------------------------------||

D |------5/6-----7\6-----5/6--------------||

A |------3/4-----5\4-----3/4--------------||

E |--0-0-----0-0-----0-0-----4-3-2-1-(0)--|| x7



RIFF TWO



E |---------------------------|    -------------------------||

B |---------------------------|    -------------------------||

G |---------------------------|    -------------------------||

D |--2------------------------|    ----------------------3--||

A |--2------------------------|    --5-----------------4-1--||

E |--0-0-0-0-0-0-0-0-4-3-1-0--| x3 --3-3-3-3-3-3-3-3-3-2----||



RIFF ONE x4

RIFF TWO x4



RIFF THREE



E |-------------------------------||

B |-------------------------------||

G |-------------------------------||

D |------4------2------4-2/3\2----||

A |------2------0------2-------5--||

E |--0-0----0-0----0-0------------|| x12 (solo begin into 4)



RIFF ONE x4

RIFF TWO x4

RIFF ONE x4

RIFF TWO x4



RIFF FOUR



E |---------------------------||

B |---------------------------||

G |---------------------------||

D |--4---4-2---2-----5-2------||

A |--2-----0-----5-----2-4/5--||

E |----0-----0---3-3---0-2/3--|| x8



RIFF FIVE



E |-------------------||

B |-------------------||

G |-------------------||

D |--4--2-------------||

A |--2--0--5--2-------||

E |--------3--0--2/3--|| x4



RIFF THREE







..::] Wstecz [::..





Dzoj.pl